Autumn Leaves Revisited Bass Tab

v퍼옴 : http://www.ultimate-guitar.com/tabs/t/thursday/autumn_leaves_revisited_btab.htm

Autumn Leaves Revisited Bass Tab
by Thursday

Tuning Drop D

(0:00)
REST

(1:06)
G|------------------------------------------|
D|------------------------------------------|
A|--5--------3--------1--------0------------|      x2
D|------------------------------------------|

(1:24)
REST

(1:28)
G|------------------------------------------|
D|------------------------------------------|
A|-----------3--------1--------0------------|      x2
D|--0---------------------------------------|

(1:47)
REST

(2:30)
G|------------------------------------------|
D|------------------------------------------|
A|--5---------------------------------------|
D|------------------------------------------|

(2:39)
G|------------------------------------------|
D|--------------------8--------7------------|
A|--5--------7------------------------------|      x4
D|------------------------------------------|

(3:14)
G|-----7-----7--5-----5-----3-----3-3--5---------7-9--|
D|--7-----7--------5-----5-----3----------7----7------|
A|-------------------------------------------7--------|        x4
D|----------------------------------------------------|

I’m not quite sure this is right, but I think it’s pretty close…

(3:49)
G|------------------------------------------|
D|------------------------------------------|
A|------------3--------1--------0-----------|
D|--0---------------------------------------|

(3:57)
G|------------------------------------------|
D|------------------------------------------|
A|-----------3-------1-------------3--/5----|
D|--0---------------------3--5--2-----------|

(4:06)                                        (4:24)   LET RING
G|------------------------------------------|     |------------------|
D|------------------------------------------|     |------------------|
A|-----------0--------1--------3------------| x2  |--5---------------|
D|--5---------------------------------------|     |------------------|

(4:29)
REST

(4:55)
G|------------------------------------------|
D|------------------------------------------|
A|--5--------7--------8-----8--10---7-------|   x2
D|------------------------------------------|

(5:13)
G|------------------------------------------|
D|------------------------------------------|
A|-----------0--------1--------3------------|   x2
D|--5---------------------------------------|

(5:31)
G|--------------------------------------------------------------|
D|--------------------------------------------------------------|
A|-55555555/-3333333/-7777777/-5555555/-8888888 h10-10/-777777--|    x2
D|--------------------------------------------------------------|

(5:49)
G|------------------------------------------|
D|------------------------------------------|
A|-----------3--------1-------0-------------|         x2
D|--0-----------------------------5---------|

(6:07)
G|------------------------------------------|
D|------------------------------------------|
A|------------------------------------------|
D|--0---------------------------------------|   x2

(6:25)
REST


http://www.eden-electronics.com/info/lessons/roy/roylesson49text_beg18.htm

'space > Bass guitar' 카테고리의 다른 글

Autumn Leaves Revisited Bass Tab  (0) 2009.11.21
연습실  (1) 2009.11.21
어울림 뮤직하우스  (0) 2009.08.07
코리아나 빅토리  (0) 2008.08.26
처음간 합주실  (3) 2008.08.25
혼자놀기 롤러코스터 습관 [대훈]  (2) 2008.08.22
cort 엑션베이스 get  (0) 2008.08.22
stand by me  (1) 2008.08.17

이 포스팅은 쿠팡 파트너스 활동의 일환으로, 이에 따른 일정액의 수수료를 제공받고 있습니다. 1 5

잘생긴 팝콘 방문해주셔서 감사합니다.

이 글을 공유하기

댓글(0)

Designed by JB FACTORY